5ちゃんねる ★スマホ版★ ■掲示板に戻る■ 全部 1- 最新50  

■ このスレッドは過去ログ倉庫に格納されています

カッコいいギター・リフの作り方

1 :ドレミファ名無シド:03/11/17 18:01 ID:H/Lrxsj+
----------------------------------- -----------------------------------
----------------------------------- -----------------------------------
---2---2---2---2---2---2---2---2--- ---2---2---2---2---2---2---2---2---
---2---2---2---2---2---2---2---2--- ---2---2---2---2---2---2---2---2---
---0---0---0---0---0---0---0---0--- ---0---0---0---0---0---0---0---0---
----------------------------------- -----------------------------------

例えばこれはAのローコード8分で弾くわけなんですけども
これを最高にカッコいいリフに変身させるには
どんな音を加えればいいとかこんなテクを屈指すれば
もっとかっこよくなるよなど教えて欲しいです。
そしてかっこよくなったリフには
何故この音を加えたのかとか、ここにこのテクを入れた理由などを
理論的にも説明して頂だきたいです。
上のはあくまで譜例なんで是非いろいろなカッコいいリフの作り方を伝授して下さい。
お願いします。

2 :ドレミファ名無シド:03/11/17 18:02 ID:???
三分で作れます

3 :ドレミファ名無シド:03/11/17 18:02 ID:???
伝授してできるなら苦労はないな

4 :ドレミファ名無シド:03/11/17 18:03 ID:???
>>1ギター教室に行きなさい

5 :ドレミファ名無シド:03/11/17 18:04 ID:???
逝ってヨシだな

6 :ドレミファ名無シド:03/11/17 18:06 ID:???
だいたいリフ(リフレイン)なんて日ごろの手癖でつくるもんさ
理論なんて書いてある本なんて山ほどある
そっちのほうが分かりやすく書いてあると思われ

7 :ドレミファ名無シド:03/11/17 18:06 ID:???
>>1宿題やったか?できたら教えてやる

8 :ドレミファ名無シド:03/11/17 18:21 ID:H/Lrxsj+
宿題やってないですけど教えてください。
手癖がもっと欲しいんです!

9 :ドレミファ名無シド:03/11/17 18:25 ID:4iVt61x/
CDをたくさん聴いて色んな人のプレイをコピーして会得しなさい。
それを世の中では「努力」と言う。

10 :PAK松本:03/11/17 18:42 ID:???
CDをたくさん聴いて色んな人のプレイをコピーして盗みなさい。
それを世の中では「パクリ」と言う。


11 :ドレミファ名無シド:03/11/17 19:51 ID:q7uwmtjI
----------------------------------- -----------------------------------
----------------------------------- -----------------------------------
---2---2---0---2-----0-2---0------- -------2---0---2-----0-2---0-------
---2------------------------------- ----------------------------------- 〜
---0---------------------------3--- ---0---------------------------3---
----------------------------------- -----------------------------------
p h p p p h p p

まずクラプトンのCrossroadsをコピってブルースロックの心と
Aペンタのソロを習得しろ。話はその後だ。

12 :ドレミファ名無シド:03/11/17 19:57 ID:???
クロスロードはそのあとからが大事なんじゃないか

13 :ドレミファ名無シド:03/11/17 20:08 ID:4iVt61x/
|-----------------|-----------------|----------------|----------------|
|-----------------|-----------------|----------------|----------------|
|-----------------|-----------------|----------------|----------------|
|-----------------|-----------5-5-4-|5---------------|----------------|
|-----------8-8-7-|-----------7-7-6-|7---------8-8-7-|--4>4-5---5>5-7-|
|0-000-00-0-6-6-5-|0-000-00-0-------|--000-000-6-6-5-|--2>2-3---3>3-5-|

まずはメタリカのバッテリーのリフをコピーってスラッシュメタルの心と、
Eマイナースケールのソロを習得しろ。話はその後だ。

(>=スラー)

14 :ドレミファ名無シド:03/11/17 21:20 ID:H/Lrxsj+
1度5度にオクターブ上の1度を8分で弾くだけってのはリフとしては味気ないですよね。


15 :ドレミファ名無シド:03/11/17 21:46 ID:???
こうだ!
でっでででででーででっでででっでででででっでででっでっでででででーーーーーーーーーーー!

16 :ドレミファ名無シド:03/11/18 18:10 ID:ygoM2rmH
4度コードが重宝することが分かった。

17 :ドレミファ名無シド:03/11/18 18:32 ID:ygoM2rmH
そして理論を少し学んだので
コードの合間に
m3rdからM3rd、6thからm7th、9thからM3rdの音を入れるのが
常用的ってなってたのでやってみたけど微妙だった。




18 :ドレミファ名無シド:03/11/18 19:10 ID:???
>>4>>8
手癖でできるリフなんて新鮮味がないと思いませんか?
自分の手癖をいかに崩して新鮮でかつ特徴的なリフを作るか
じゃないでしょうか。
まぁ、伝統的なフレーズを踏襲した上で新鮮味あるリフってのも
あるといえばありますけどね。組み合わせ次第では。
使う音は一緒でも4/4のリズムの上で6/8のリフを弾いて
どんどんずれていく感じを楽しむとか。
ポリリズムをちょっと意識してみたりするのも良いかも。
聞く音楽を少し幅広くするといろんなアイディアも浮かんで来るかもね。

19 :ドレミファ名無シド:03/11/18 19:19 ID:???
スケール練習中に思いついたリフが結構あるな。
ただ上下動するだけじゃなくリズム付けたり音飛ばしたり
途中で違うスケールにしたりコード絡めたり、色々して
遊んでたらいつのまにかリフになってたっつー感じ。
それをmp3にしてためてあるフォルダーがある。
今見たら200個くらい未使用のリフがたまってた。

20 :ドレミファ名無シド:03/11/20 19:30 ID:???
おもしろいコード進行を見つけたらそれのコードトーンを拾いつつ
間を経過音で埋めたりしてリフを作るという手もある。
ベースラインにも有効な作り方。

6 KB
■ このスレッドは過去ログ倉庫に格納されています

★スマホ版★ 掲示板に戻る 全部 前100 次100 最新50

read.cgi ver 05.04.02 2018/11/22 Walang Kapalit ★
FOX ★ DSO(Dynamic Shared Object)